  0
SECTION
  2
HEADER
  9
$ACADVER
  1
AC1015
  9
$ACADMAINTVER
 70
     6
  9
$DWGCODEPAGE
  3
ANSI_1254
  9
$INSBASE
 10
0.0
 20
0.0
 30
0.0
  9
$EXTMIN
 10
0.0
 20
0.0
 30
0.0
  9
$EXTMAX
 10
279.4
 20
215.9
 30
0.0
  9
$LIMMIN
 10
0.0
 20
0.0
  9
$LIMMAX
 10
279.4
 20
215.9
  9
$ORTHOMODE
 70
     0
  9
$REGENMODE
 70
     1
  9
$FILLMODE
 70
     1
  9
$QTEXTMODE
 70
     0
  9
$MIRRTEXT
 70
     1
  9
$LTSCALE
 40
1.0
  9
$ATTMODE
 70
     1
  9
$TEXTSIZE
 40
3.5
  9
$TRACEWID
 40
1.0
  9
$TEXTSTYLE
  7
Standard
  9
$CLAYER
  8
0
  9
$CELTYPE
  6
ByLayer
  9
$CECOLOR
 62
   256
  9
$CELTSCALE
 40
1.0
  9
$DISPSILH
 70
     0
  9
$DIMSCALE
 40
1.0
  9
$DIMASZ
 40
3.5
  9
$DIMEXO
 40
1.0
  9
$DIMDLI
 40
3.75
  9
$DIMRND
 40
0.0
  9
$DIMDLE
 40
0.0
  9
$DIMEXE
 40
1.0
  9
$DIMTP
 40
0.0
  9
$DIMTM
 40
0.0
  9
$DIMTXT
 40
3.5
  9
$DIMCEN
 40
2.5
  9
$DIMTSZ
 40
0.0
  9
$DIMTOL
 70
     0
  9
$DIMLIM
 70
     0
  9
$DIMTIH
 70
     1
  9
$DIMTOH
 70
     1
  9
$DIMSE1
 70
     0
  9
$DIMSE2
 70
     0
  9
$DIMTAD
 70
     1
  9
$DIMZIN
 70
     0
  9
$DIMBLK
  1

  9
$DIMASO
 70
     1
  9
$DIMSHO
 70
     1
  9
$DIMPOST
  1

  9
$DIMAPOST
  1

  9
$DIMALT
 70
     0
  9
$DIMALTD
 70
     3
  9
$DIMALTF
 40
0.0393700787
  9
$DIMLFAC
 40
1.0
  9
$DIMTOFL
 70
     1
  9
$DIMTVP
 40
0.0
  9
$DIMTIX
 70
     0
  9
$DIMSOXD
 70
     0
  9
$DIMSAH
 70
     0
  9
$DIMBLK1
  1

  9
$DIMBLK2
  1

  9
$DIMSTYLE
  2
ISO-25
  9
$DIMCLRD
 70
     0
  9
$DIMCLRE
 70
     0
  9
$DIMCLRT
 70
     0
  9
$DIMTFAC
 40
1.0
  9
$DIMGAP
 40
1.524
  9
$DIMJUST
 70
     0
  9
$DIMSD1
 70
     0
  9
$DIMSD2
 70
     0
  9
$DIMTOLJ
 70
     0
  9
$DIMTZIN
 70
     0
  9
$DIMALTZ
 70
     0
  9
$DIMALTTZ
 70
     0
  9
$DIMUPT
 70
     0
  9
$DIMDEC
 70
     2
  9
$DIMTDEC
 70
     2
  9
$DIMALTU
 70
     2
  9
$DIMALTTD
 70
     3
  9
$DIMTXSTY
  7
Standard
  9
$DIMAUNIT
 70
     0
  9
$DIMADEC
 70
     2
  9
$DIMALTRND
 40
0.0
  9
$DIMAZIN
 70
     0
  9
$DIMDSEP
 70
    44
  9
$DIMATFIT
 70
     3
  9
$DIMFRAC
 70
     0
  9
$DIMLDRBLK
  1

  9
$DIMLUNIT
 70
     2
  9
$DIMLWD
 70
    -2
  9
$DIMLWE
 70
    -2
  9
$DIMTMOVE
 70
     0
  9
$LUNITS
 70
     2
  9
$LUPREC
 70
     2
  9
$SKETCHINC
 40
1.0
  9
$FILLETRAD
 40
10.0
  9
$AUNITS
 70
     0
  9
$AUPREC
 70
     2
  9
$MENU
  1
.
  9
$ELEVATION
 40
0.0
  9
$PELEVATION
 40
0.0
  9
$THICKNESS
 40
0.0
  9
$LIMCHECK
 70
     0
  9
$CHAMFERA
 40
0.0
  9
$CHAMFERB
 40
0.0
  9
$CHAMFERC
 40
0.0
  9
$CHAMFERD
 40
0.0
  9
$SKPOLY
 70
     0
  9
$TDCREATE
 40
2458985.632942199
  9
$TDUCREATE
 40
2458985.507942199
  9
$TDUPDATE
 40
2458985.632942431
  9
$TDUUPDATE
 40
2458985.507942431
  9
$TDINDWG
 40
0.0000000116
  9
$TDUSRTIMER
 40
0.0000000116
  9
$USRTIMER
 70
     1
  9
$ANGBASE
 50
0.0
  9
$ANGDIR
 70
     0
  9
$PDMODE
 70
     0
  9
$PDSIZE
 40
-1.0
  9
$PLINEWID
 40
0.0
  9
$SPLFRAME
 70
     0
  9
$SPLINETYPE
 70
     6
  9
$SPLINESEGS
 70
     8
  9
$HANDSEED
  5
CC
  9
$SURFTAB1
 70
     6
  9
$SURFTAB2
 70
     6
  9
$SURFTYPE
 70
     6
  9
$SURFU
 70
     6
  9
$SURFV
 70
     6
  9
$UCSBASE
  2

  9
$UCSNAME
  2

  9
$UCSORG
 10
0.0
 20
0.0
 30
0.0
  9
$UCSXDIR
 10
1.0
 20
0.0
 30
0.0
  9
$UCSYDIR
 10
0.0
 20
1.0
 30
0.0
  9
$UCSORTHOREF
  2

  9
$UCSORTHOVIEW
 70
     0
  9
$UCSORGTOP
 10
0.0
 20
0.0
 30
0.0
  9
$UCSORGBOTTOM
 10
0.0
 20
0.0
 30
0.0
  9
$UCSORGLEFT
 10
0.0
 20
0.0
 30
0.0
  9
$UCSORGRIGHT
 10
0.0
 20
0.0
 30
0.0
  9
$UCSORGFRONT
 10
0.0
 20
0.0
 30
0.0
  9
$UCSORGBACK
 10
0.0
 20
0.0
 30
0.0
  9
$PUCSBASE
  2

  9
$PUCSNAME
  2

  9
$PUCSORG
 10
0.0
 20
0.0
 30
0.0
  9
$PUCSXDIR
 10
1.0
 20
0.0
 30
0.0
  9
$PUCSYDIR
 10
0.0
 20
1.0
 30
0.0
  9
$PUCSORTHOREF
  2

  9
$PUCSORTHOVIEW
 70
     0
  9
$PUCSORGTOP
 10
0.0
 20
0.0
 30
0.0
  9
$PUCSORGBOTTOM
 10
0.0
 20
0.0
 30
0.0
  9
$PUCSORGLEFT
 10
0.0
 20
0.0
 30
0.0
  9
$PUCSORGRIGHT
 10
0.0
 20
0.0
 30
0.0
  9
$PUCSORGFRONT
 10
0.0
 20
0.0
 30
0.0
  9
$PUCSORGBACK
 10
0.0
 20
0.0
 30
0.0
  9
$USERI1
 70
     0
  9
$USERI2
 70
     0
  9
$USERI3
 70
     0
  9
$USERI4
 70
     0
  9
$USERI5
 70
     0
  9
$USERR1
 40
0.0
  9
$USERR2
 40
0.0
  9
$USERR3
 40
0.0
  9
$USERR4
 40
0.0
  9
$USERR5
 40
0.0
  9
$WORLDVIEW
 70
     1
  9
$SHADEDGE
 70
     3
  9
$SHADEDIF
 70
    70
  9
$TILEMODE
 70
     1
  9
$MAXACTVP
 70
    64
  9
$PINSBASE
 10
0.0
 20
0.0
 30
0.0
  9
$PLIMCHECK
 70
     0
  9
$PEXTMIN
 10
1.0000000000E+20
 20
1.0000000000E+20
 30
1.0000000000E+20
  9
$PEXTMAX
 10
-1.0000000000E+20
 20
-1.0000000000E+20
 30
-1.0000000000E+20
  9
$PLIMMIN
 10
0.0
 20
0.0
  9
$PLIMMAX
 10
420.0
 20
297.0
  9
$UNITMODE
 70
     0
  9
$VISRETAIN
 70
     1
  9
$PLINEGEN
 70
     0
  9
$PSLTSCALE
 70
     1
  9
$TREEDEPTH
 70
  3020
  9
$CMLSTYLE
  2
Standard
  9
$CMLJUST
 70
     0
  9
$CMLSCALE
 40
20.0
  9
$PROXYGRAPHICS
 70
     1
  9
$MEASUREMENT
 70
     1
  9
$CELWEIGHT
370
    -1
  9
$ENDCAPS
280
     0
  9
$JOINSTYLE
280
     0
  9
$LWDISPLAY
290
     1
  9
$INSUNITS
 70
     4
  9
$HYPERLINKBASE
  1

  9
$STYLESHEET
  1

  9
$XEDIT
290
     1
  9
$CEPSNTYPE
380
     0
  9
$PSTYLEMODE
290
     1
  9
$FINGERPRINTGUID
  2
{6530bfb8-cc5f-4b58-b5fe-e045ad708dba}
  9
$VERSIONGUID
  2
{FAEB1C32-E019-11D5-929B-00C0DF256EC4}
  9
$EXTNAMES
290
     1
  9
$PSVPSCALE
 40
0.0
  9
$OLESTARTUP
290
     0
  0
ENDSEC
  0
SECTION
  2
CLASSES
  0
CLASS
  1
ACDBDICTIONARYWDFLT
  2
AcDbDictionaryWithDefault
  3
ObjectDBX Classes
 90
        0
280
     0
281
     0
  0
CLASS
  1
VISUALSTYLE
  2
AcDbVisualStyle
  3
ObjectDBX Classes
 90
     4095
280
     0
281
     0
  0
CLASS
  1
MATERIAL
  2
AcDbMaterial
  3
ObjectDBX Classes
 90
     1153
280
     0
281
     0
  0
CLASS
  1
SCALE
  2
AcDbScale
  3
ObjectDBX Classes
 90
     1153
280
     0
281
     0
  0
CLASS
  1
TABLESTYLE
  2
AcDbTableStyle
  3
ObjectDBX Classes
 90
     4095
280
     0
281
     0
  0
CLASS
  1
MLEADERSTYLE
  2
AcDbMLeaderStyle
  3
ACDB_MLEADERSTYLE_CLASS
 90
     4095
280
     0
281
     0
  0
CLASS
  1
SUN
  2
AcDbSun
  3
SCENEOE
 90
     1153
280
     0
281
     0
  0
CLASS
  1
ACDBPLACEHOLDER
  2
AcDbPlaceHolder
  3
ObjectDBX Classes
 90
        0
280
     0
281
     0
  0
CLASS
  1
LAYOUT
  2
AcDbLayout
  3
ObjectDBX Classes
 90
        0
280
     0
281
     0
  0
ENDSEC
  0
SECTION
  2
TABLES
  0
TABLE
  2
VPORT
  5
8
330
0
100
AcDbSymbolTable
 70
     1
  0
VPORT
  5
29
330
8
100
AcDbSymbolTableRecord
100
AcDbViewportTableRecord
  2
*Active
 70
     0
 10
0.0
 20
0.0
 11
1.0
 21
1.0
 12
139.7
 22
107.95
 13
0.0
 23
0.0
 14
10.0
 24
10.0
 15
10.0
 25
10.0
 16
0.0
 26
0.0
 36
1.0
 17
0.0
 27
0.0
 37
0.0
 40
215.9
 41
1.2941176471
 42
50.0
 43
0.0
 44
0.0
 50
0.0
 51
0.0
 71
     0
 72
  2000
 73
     1
 74
     3
 75
     0
 76
     0
 77
     0
 78
     0
281
     0
 65
     1
110
0.0
120
0.0
130
0.0
111
1.0
121
0.0
131
0.0
112
0.0
122
1.0
132
0.0
 79
     0
146
0.0
  0
ENDTAB
  0
TABLE
  2
LTYPE
  5
5
330
0
100
AcDbSymbolTable
 70
     6
  0
LTYPE
  5
14
330
5
100
AcDbSymbolTableRecord
100
AcDbLinetypeTableRecord
  2
ByBlock
 70
     0
  3

 72
    65
 73
     0
 40
0.0
  0
LTYPE
  5
15
330
5
100
AcDbSymbolTableRecord
100
AcDbLinetypeTableRecord
  2
ByLayer
 70
     0
  3

 72
    65
 73
     0
 40
0.0
  0
LTYPE
  5
16
330
5
100
AcDbSymbolTableRecord
100
AcDbLinetypeTableRecord
  2
Continuous
 70
     0
  3
Solid line
 72
    65
 73
     0
 40
0.0
  0
LTYPE
  5
6E
330
5
100
AcDbSymbolTableRecord
100
AcDbLinetypeTableRecord
  2
HIDDEN
 70
     0
  3
Hidden __ __ __ __ __ __ __ __ __ __ __ __ __ __
 72
    65
 73
     2
 40
1.905
 49
1.27
 74
     0
 49
-0.635
 74
     0
  0
LTYPE
  5
6F
330
5
100
AcDbSymbolTableRecord
100
AcDbLinetypeTableRecord
  2
PHANTOM
 70
     0
  3
Phantom ______  __  __  ______  __  __  ______
 72
    65
 73
     6
 40
12.7
 49
6.35
 74
     0
 49
-1.27
 74
     0
 49
1.27
 74
     0
 49
-1.27
 74
     0
 49
1.27
 74
     0
 49
-1.27
 74
     0
  0
LTYPE
  5
70
330
5
100
AcDbSymbolTableRecord
100
AcDbLinetypeTableRecord
  2
CENTER
 70
     0
  3
Center ____ _ ____ _ ____ _ ____ _ ____ _ ____
 72
    65
 73
     4
 40
10.16
 49
6.35
 74
     0
 49
-1.27
 74
     0
 49
1.27
 74
     0
 49
-1.27
 74
     0
  0
LTYPE
  5
71
330
5
100
AcDbSymbolTableRecord
100
AcDbLinetypeTableRecord
  2
CENTERX2
 70
     0
  3
Center (2x) ________  __  ________  __  _____
 72
    65
 73
     4
 40
20.32
 49
12.7
 74
     0
 49
-2.54
 74
     0
 49
2.54
 74
     0
 49
-2.54
 74
     0
  0
LTYPE
  5
72
330
5
100
AcDbSymbolTableRecord
100
AcDbLinetypeTableRecord
  2
DOT2
 70
     0
  3
Dot (.5x) ........................................
 72
    65
 73
     2
 40
0.635
 49
0.0
 74
     0
 49
-0.635
 74
     0
  0
ENDTAB
  0
TABLE
  2
LAYER
  5
2
330
0
100
AcDbSymbolTable
 70
    17
  0
LAYER
  5
10
330
2
100
AcDbSymbolTableRecord
100
AcDbLayerTableRecord
  2
0
 70
     0
 62
     7
  6
Continuous
370
    -3
390
F
  0
LAYER
  5
73
330
2
100
AcDbSymbolTableRecord
100
AcDbLayerTableRecord
  2
FORMAT
 70
     0
 62
     7
  6
Continuous
370
    -3
390
F
  0
LAYER
  5
74
330
2
100
AcDbSymbolTableRecord
100
AcDbLayerTableRecord
  2
YARDIMCI_GEOMETRI
 70
     0
 62
    -6
  6
Continuous
290
     0
370
    -3
390
F
  0
LAYER
  5
75
330
2
100
AcDbSymbolTableRecord
100
AcDbLayerTableRecord
  2
SAYFA_CERCEVESI
 70
     0
 62
     7
  6
Continuous
370
    25
390
F
  0
LAYER
  5
76
330
2
100
AcDbSymbolTableRecord
100
AcDbLayerTableRecord
  2
ANTET
 70
     0
 62
     7
  6
Continuous
370
    -3
390
F
  0
LAYER
  5
77
330
2
100
AcDbSymbolTableRecord
100
AcDbLayerTableRecord
  2
OLCU
 70
     0
 62
   150
  6
Continuous
370
    -3
390
F
  0
LAYER
  5
78
330
2
100
AcDbSymbolTableRecord
100
AcDbLayerTableRecord
  2
METIN
 70
     0
 62
    96
  6
Continuous
370
    -3
390
F
  0
LAYER
  5
79
330
2
100
AcDbSymbolTableRecord
100
AcDbLayerTableRecord
  2
BALON
 70
     0
 62
     5
  6
Continuous
370
    -3
390
F
  0
LAYER
  5
7A
330
2
100
AcDbSymbolTableRecord
100
AcDbLayerTableRecord
  2
VURGU
 70
     0
 62
     7
  6
Continuous
370
    -3
390
F
  0
LAYER
  5
7B
330
2
100
AcDbSymbolTableRecord
100
AcDbLayerTableRecord
  2
SILIK
 70
     0
 62
     7
  6
Continuous
370
    -3
390
F
  0
LAYER
  5
7C
330
2
100
AcDbSymbolTableRecord
100
AcDbLayerTableRecord
  2
MODEL
 70
     0
 62
     7
  6
Continuous
370
    -3
390
F
  0
LAYER
  5
7D
330
2
100
AcDbSymbolTableRecord
100
AcDbLayerTableRecord
  2
DETAYLANDıRMA
 70
     0
 62
   190
  6
Continuous
370
    -3
390
F
  0
LAYER
  5
7E
330
2
100
AcDbSymbolTableRecord
100
AcDbLayerTableRecord
  2
TOLERANS
 70
     0
 62
   230
  6
Continuous
370
    -3
390
F
  0
LAYER
  5
7F
330
2
100
AcDbSymbolTableRecord
100
AcDbLayerTableRecord
  2
MERKEZ_CIZGILERI
 70
     0
 62
    30
  6
Continuous
370
    -3
390
F
  0
LAYER
  5
80
330
2
100
AcDbSymbolTableRecord
100
AcDbLayerTableRecord
  2
KESIT-DETAY_CIZGILERI
 70
     0
 62
     7
  6
Continuous
370
    -3
390
F
  0
LAYER
  5
81
330
2
100
AcDbSymbolTableRecord
100
AcDbLayerTableRecord
  2
\U+041E\U+0421\U+0415\U+0412\U+042B\U+0415
 70
     0
 62
     7
  6
Continuous
370
    -3
390
F
  0
LAYER
  5
82
330
2
100
AcDbSymbolTableRecord
100
AcDbLayerTableRecord
  2
\U+0412\U+041E\U+0414\U+042F\U+041D\U+042B\U+0415_\U+0417\U+041D\U+0410\U+041A\U+0418
 70
     0
 62
    11
  6
Continuous
370
    -3
390
F
  0
ENDTAB
  0
TABLE
  2
STYLE
  5
3
330
0
100
AcDbSymbolTable
 70
     1
  0
STYLE
  5
11
330
3
100
AcDbSymbolTableRecord
100
AcDbTextStyleTableRecord
  2
Standard
 70
     0
 40
0.0
 41
1.0
 50
0.0
 71
     0
 42
3.5
  3
txt
  4

  0
ENDTAB
  0
TABLE
  2
VIEW
  5
6
330
0
100
AcDbSymbolTable
 70
     0
  0
ENDTAB
  0
TABLE
  2
UCS
  5
7
330
0
100
AcDbSymbolTable
 70
     0
  0
ENDTAB
  0
TABLE
  2
APPID
  5
9
330
0
100
AcDbSymbolTable
 70
     1
  0
APPID
  5
12
330
9
100
AcDbSymbolTableRecord
100
AcDbRegAppTableRecord
  2
ACAD
 70
     0
  0
ENDTAB
  0
TABLE
  2
DIMSTYLE
  5
A
330
0
100
AcDbSymbolTable
 70
     1
100
AcDbDimStyleTable
  0
DIMSTYLE
105
27
330
A
100
AcDbSymbolTableRecord
100
AcDbDimStyleTableRecord
  2
ISO-25
 70
     0
 41
2.5
 42
0.625
 43
3.75
 44
1.25
 73
     0
 74
     0
 77
     1
 78
     8
140
2.5
141
2.5
143
0.0393700787
147
0.625
171
     3
172
     1
178
     0
271
     2
272
     2
274
     3
278
    44
283
     0
284
     8
340
11
  0
ENDTAB
  0
TABLE
  2
BLOCK_RECORD
  5
1
330
0
100
AcDbSymbolTable
 70
     2
  0
BLOCK_RECORD
  5
1F
330
1
100
AcDbSymbolTableRecord
100
AcDbBlockTableRecord
  2
*Model_Space
340
22
  0
BLOCK_RECORD
  5
1B
330
1
100
AcDbSymbolTableRecord
100
AcDbBlockTableRecord
  2
*Paper_Space
340
1E
  0
BLOCK_RECORD
  5
23
330
1
100
AcDbSymbolTableRecord
100
AcDbBlockTableRecord
  2
*Paper_Space0
340
26
  0
BLOCK_RECORD
  5
87
330
1
100
AcDbSymbolTableRecord
100
AcDbBlockTableRecord
  2
SW_CENTERMARKSYMBOL_0
340
0
102
{BLKREFS
331
92
102
}
  0
ENDTAB
  0
ENDSEC
  0
SECTION
  2
BLOCKS
  0
BLOCK
  5
20
330
1F
100
AcDbEntity
  8
0
100
AcDbBlockBegin
  2
*Model_Space
 70
     0
 10
0.0
 20
0.0
 30
0.0
  3
*Model_Space
  1

  0
ENDBLK
  5
21
330
1F
100
AcDbEntity
  8
0
100
AcDbBlockEnd
  0
BLOCK
  5
1C
330
1B
100
AcDbEntity
 67
     1
  8
0
100
AcDbBlockBegin
  2
*Paper_Space
 70
     0
 10
0.0
 20
0.0
 30
0.0
  3
*Paper_Space
  1

  0
ENDBLK
  5
1D
330
1B
100
AcDbEntity
 67
     1
  8
0
100
AcDbBlockEnd
  0
BLOCK
  5
24
330
23
100
AcDbEntity
  8
0
100
AcDbBlockBegin
  2
*Paper_Space0
 70
     0
 10
0.0
 20
0.0
 30
0.0
  3
*Paper_Space0
  1

  0
ENDBLK
  5
25
330
23
100
AcDbEntity
  8
0
100
AcDbBlockEnd
  0
BLOCK
  5
88
330
87
100
AcDbEntity
  8
0
100
AcDbBlockBegin
  2
SW_CENTERMARKSYMBOL_0
 70
     0
 10
0.0
 20
0.0
 30
0.0
  3
SW_CENTERMARKSYMBOL_0
  1

  0
LINE
  5
8A
330
87
100
AcDbEntity
  8
FORMAT
 62
     0
100
AcDbLine
 10
0.0
 20
0.0
 30
0.0
 11
0.0
 21
2.5
 31
0.0
  0
LINE
  5
8B
330
87
100
AcDbEntity
  8
FORMAT
 62
     0
100
AcDbLine
 10
0.0
 20
0.0
 30
0.0
 11
-2.5
 21
0.0
 31
0.0
  0
LINE
  5
8C
330
87
100
AcDbEntity
  8
FORMAT
 62
     0
100
AcDbLine
 10
0.0
 20
0.0
 30
0.0
 11
0.0
 21
-2.5
 31
0.0
  0
LINE
  5
8D
330
87
100
AcDbEntity
  8
FORMAT
 62
     0
100
AcDbLine
 10
0.0
 20
0.0
 30
0.0
 11
2.5
 21
0.0
 31
0.0
  0
LINE
  5
8E
330
87
100
AcDbEntity
  8
FORMAT
 62
     0
100
AcDbLine
 10
0.0
 20
5.0
 30
0.0
 11
0.0
 21
46.5
 31
0.0
  0
LINE
  5
8F
330
87
100
AcDbEntity
  8
FORMAT
 62
     0
100
AcDbLine
 10
-5.0
 20
0.0
 30
0.0
 11
-46.5
 21
0.0
 31
0.0
  0
LINE
  5
90
330
87
100
AcDbEntity
  8
FORMAT
 62
     0
100
AcDbLine
 10
0.0
 20
-5.0
 30
0.0
 11
0.0
 21
-46.5
 31
0.0
  0
LINE
  5
91
330
87
100
AcDbEntity
  8
FORMAT
 62
     0
100
AcDbLine
 10
5.0
 20
0.0
 30
0.0
 11
46.5
 21
0.0
 31
0.0
  0
ENDBLK
  5
89
330
87
100
AcDbEntity
  8
0
100
AcDbBlockEnd
  0
ENDSEC
  0
SECTION
  2
ENTITIES
  0
CIRCLE
  5
83
330
1F
100
AcDbEntity
  8
0
  6
Continuous
 62
     7
370
    25
100
AcDbCircle
 10
143.5444929605
 20
102.6407430993
 30
0.0
 40
25.00000000000003
  0
CIRCLE
  5
84
330
1F
100
AcDbEntity
  8
0
  6
Continuous
 62
     7
370
    25
100
AcDbCircle
 10
143.5444929605
 20
102.6407430993
 30
0.0
 40
20.40000000000002
  0
CIRCLE
  5
85
330
1F
100
AcDbEntity
  8
0
  6
Continuous
 62
     7
370
    25
100
AcDbCircle
 10
143.5444929605
 20
102.6407430993
 30
0.0
 40
31.00000000000001
  0
CIRCLE
  5
86
330
1F
100
AcDbEntity
  8
0
  6
Continuous
 62
     7
370
    25
100
AcDbCircle
 10
143.5444929605
 20
102.6407430993
 30
0.0
 40
44.00000000000001
  0
INSERT
  5
92
330
1F
100
AcDbEntity
  8
FORMAT
 62
     7
100
AcDbBlockReference
  2
SW_CENTERMARKSYMBOL_0
 10
143.5444929605
 20
102.6407430993
 30
0.0
  0
LINE
  5
93
330
1F
100
AcDbEntity
  8
0
  6
Continuous
 62
     7
370
    25
100
AcDbLine
 10
187.5444929605
 20
166.8657793662
 30
0.0
 11
187.5444929605
 21
178.8657793662
 31
0.0
  0
LINE
  5
94
330
1F
100
AcDbEntity
  8
0
  6
Continuous
 62
     7
370
    25
100
AcDbLine
 10
99.5444929605
 20
178.8657793662
 30
0.0
 11
99.5444929605
 21
166.8657793662
 31
0.0
  0
LINE
  5
95
330
1F
100
AcDbEntity
  8
0
  6
Continuous
 62
     7
370
    25
100
AcDbLine
 10
174.5444929605
 20
178.8657793662
 30
0.0
 11
168.5444929605
 21
195.8657793662
 31
0.0
  0
LINE
  5
96
330
1F
100
AcDbEntity
  8
0
  6
Continuous
 62
     7
370
    25
100
AcDbLine
 10
118.5444929605
 20
195.8657793662
 30
0.0
 11
112.5444929605
 21
178.8657793662
 31
0.0
  0
LINE
  5
97
330
1F
100
AcDbEntity
  8
0
  6
Continuous
 62
     7
370
    25
100
AcDbLine
 10
168.5444929605
 20
195.8657793662
 30
0.0
 11
168.5444929605
 21
258.8657793662
 31
0.0
  0
LINE
  5
98
330
1F
100
AcDbEntity
  8
0
  6
Continuous
 62
     7
370
    25
100
AcDbLine
 10
118.5444929605
 20
258.8657793662
 30
0.0
 11
118.5444929605
 21
195.8657793662
 31
0.0
  0
LINE
  5
99
330
1F
100
AcDbEntity
  8
0
  6
Continuous
 62
     7
370
    25
100
AcDbLine
 10
187.5444929605
 20
166.8657793662
 30
0.0
 11
99.5444929605
 21
166.8657793662
 31
0.0
  0
LINE
  5
9A
330
1F
100
AcDbEntity
  8
0
  6
Continuous
 62
     7
370
    25
100
AcDbLine
 10
187.5444929605
 20
178.8657793662
 30
0.0
 11
99.5444929605
 21
178.8657793662
 31
0.0
  0
LINE
  5
9B
330
1F
100
AcDbEntity
  8
0
  6
Continuous
 62
     7
370
    25
100
AcDbLine
 10
168.5444929605
 20
195.8657793662
 30
0.0
 11
118.5444929605
 21
195.8657793662
 31
0.0
  0
LINE
  5
9C
330
1F
100
AcDbEntity
  8
0
  6
Continuous
 62
     7
370
    25
100
AcDbLine
 10
168.5444929605
 20
258.8657793662
 30
0.0
 11
118.5444929605
 21
258.8657793662
 31
0.0
  0
LINE
  5
9D
330
1F
100
AcDbEntity
  8
0
  6
Continuous
 62
     7
370
    25
100
AcDbLine
 10
78.6890964166
 20
146.6407430993
 30
0.0
 11
66.6890964166
 21
146.6407430993
 31
0.0
  0
LINE
  5
9E
330
1F
100
AcDbEntity
  8
0
  6
Continuous
 62
     7
370
    25
100
AcDbLine
 10
66.6890964166
 20
58.6407430993
 30
0.0
 11
78.6890964166
 21
58.6407430993
 31
0.0
  0
LINE
  5
9F
330
1F
100
AcDbEntity
  8
0
  6
Continuous
 62
     7
370
    25
100
AcDbLine
 10
66.6890964166
 20
133.6407430993
 30
0.0
 11
49.6890964166
 21
127.6407430993
 31
0.0
  0
LINE
  5
A0
330
1F
100
AcDbEntity
  8
0
  6
Continuous
 62
     7
370
    25
100
AcDbLine
 10
49.6890964166
 20
77.6407430993
 30
0.0
 11
66.6890964166
 21
71.6407430993
 31
0.0
  0
LINE
  5
A1
330
1F
100
AcDbEntity
  8
0
  6
Continuous
 62
     7
370
    25
100
AcDbLine
 10
49.6890964166
 20
127.6407430993
 30
0.0
 11
-13.3109035834
 21
127.6407430993
 31
0.0
  0
LINE
  5
A2
330
1F
100
AcDbEntity
  8
0
  6
Continuous
 62
     7
370
    25
100
AcDbLine
 10
-13.3109035834
 20
77.6407430993
 30
0.0
 11
49.6890964166
 21
77.6407430993
 31
0.0
  0
LINE
  5
A3
330
1F
100
AcDbEntity
  8
0
  6
Continuous
 62
     7
370
    25
100
AcDbLine
 10
78.6890964166
 20
146.6407430993
 30
0.0
 11
78.6890964166
 21
58.6407430993
 31
0.0
  0
LINE
  5
A4
330
1F
100
AcDbEntity
  8
0
  6
Continuous
 62
     7
370
    25
100
AcDbLine
 10
66.6890964166
 20
146.6407430993
 30
0.0
 11
66.6890964166
 21
58.6407430993
 31
0.0
  0
LINE
  5
A5
330
1F
100
AcDbEntity
  8
0
  6
Continuous
 62
     7
370
    25
100
AcDbLine
 10
49.6890964166
 20
127.6407430993
 30
0.0
 11
49.6890964166
 21
77.6407430993
 31
0.0
  0
LINE
  5
A6
330
1F
100
AcDbEntity
  8
0
  6
Continuous
 62
     7
370
    25
100
AcDbLine
 10
-13.3109035834
 20
127.6407430993
 30
0.0
 11
-13.3109035834
 21
77.6407430993
 31
0.0
  0
LINE
  5
A7
330
1F
100
AcDbEntity
  8
0
  6
Continuous
 62
     7
370
    25
100
AcDbLine
 10
209.8026855894
 20
58.6407430993
 30
0.0
 11
221.8026855894
 21
58.6407430993
 31
0.0
  0
LINE
  5
A8
330
1F
100
AcDbEntity
  8
0
  6
Continuous
 62
     7
370
    25
100
AcDbLine
 10
221.8026855894
 20
146.6407430993
 30
0.0
 11
209.8026855894
 21
146.6407430993
 31
0.0
  0
LINE
  5
A9
330
1F
100
AcDbEntity
  8
0
  6
Continuous
 62
     7
370
    25
100
AcDbLine
 10
221.8026855894
 20
71.6407430993
 30
0.0
 11
238.8026855894
 21
77.6407430993
 31
0.0
  0
LINE
  5
AA
330
1F
100
AcDbEntity
  8
0
  6
Continuous
 62
     7
370
    25
100
AcDbLine
 10
238.8026855894
 20
127.6407430993
 30
0.0
 11
221.8026855894
 21
133.6407430993
 31
0.0
  0
LINE
  5
AB
330
1F
100
AcDbEntity
  8
0
  6
Continuous
 62
     7
370
    25
100
AcDbLine
 10
238.8026855894
 20
77.6407430993
 30
0.0
 11
301.8026855894
 21
77.6407430993
 31
0.0
  0
LINE
  5
AC
330
1F
100
AcDbEntity
  8
0
  6
Continuous
 62
     7
370
    25
100
AcDbLine
 10
301.8026855894
 20
127.6407430993
 30
0.0
 11
238.8026855894
 21
127.6407430993
 31
0.0
  0
LINE
  5
AD
330
1F
100
AcDbEntity
  8
0
  6
Continuous
 62
     7
370
    25
100
AcDbLine
 10
209.8026855894
 20
102.6407430993
 30
0.0
 11
209.8026855894
 21
146.6407430993
 31
0.0
  0
LINE
  5
AE
330
1F
100
AcDbEntity
  8
0
  6
Continuous
 62
     7
370
    25
100
AcDbLine
 10
209.8026855894
 20
58.6407430993
 30
0.0
 11
209.8026855894
 21
102.6407430993
 31
0.0
  0
LINE
  5
AF
330
1F
100
AcDbEntity
  8
0
  6
Continuous
 62
     7
370
    25
100
AcDbLine
 10
221.8026855894
 20
102.6407430993
 30
0.0
 11
221.8026855894
 21
146.6407430993
 31
0.0
  0
LINE
  5
B0
330
1F
100
AcDbEntity
  8
0
  6
Continuous
 62
     7
370
    25
100
AcDbLine
 10
221.8026855894
 20
58.6407430993
 30
0.0
 11
221.8026855894
 21
102.6407430993
 31
0.0
  0
LINE
  5
B1
330
1F
100
AcDbEntity
  8
0
  6
Continuous
 62
     7
370
    25
100
AcDbLine
 10
238.8026855894
 20
102.6407430993
 30
0.0
 11
238.8026855894
 21
127.6407430993
 31
0.0
  0
LINE
  5
B2
330
1F
100
AcDbEntity
  8
0
  6
Continuous
 62
     7
370
    25
100
AcDbLine
 10
238.8026855894
 20
77.6407430993
 30
0.0
 11
238.8026855894
 21
102.6407430993
 31
0.0
  0
LINE
  5
B3
330
1F
100
AcDbEntity
  8
0
  6
Continuous
 62
     7
370
    25
100
AcDbLine
 10
301.8026855894
 20
102.6407430993
 30
0.0
 11
301.8026855894
 21
127.6407430993
 31
0.0
  0
LINE
  5
B4
330
1F
100
AcDbEntity
  8
0
  6
Continuous
 62
     7
370
    25
100
AcDbLine
 10
301.8026855894
 20
77.6407430993
 30
0.0
 11
301.8026855894
 21
102.6407430993
 31
0.0
  0
LINE
  5
B5
330
1F
100
AcDbEntity
  8
0
  6
Continuous
 62
     7
370
    25
100
AcDbLine
 10
99.5444929605
 20
36.7492908604
 30
0.0
 11
99.5444929605
 21
24.7492908604
 31
0.0
  0
LINE
  5
B6
330
1F
100
AcDbEntity
  8
0
  6
Continuous
 62
     7
370
    25
100
AcDbLine
 10
187.5444929605
 20
24.7492908604
 30
0.0
 11
187.5444929605
 21
36.7492908604
 31
0.0
  0
LINE
  5
B7
330
1F
100
AcDbEntity
  8
0
  6
Continuous
 62
     7
370
    25
100
AcDbLine
 10
112.5444929605
 20
24.7492908604
 30
0.0
 11
118.5444929605
 21
7.7492908604
 31
0.0
  0
LINE
  5
B8
330
1F
100
AcDbEntity
  8
0
  6
Continuous
 62
     7
370
    25
100
AcDbLine
 10
168.5444929605
 20
7.7492908604
 30
0.0
 11
174.5444929605
 21
24.7492908604
 31
0.0
  0
LINE
  5
B9
330
1F
100
AcDbEntity
  8
0
  6
Continuous
 62
     7
370
    25
100
AcDbLine
 10
118.5444929605
 20
7.7492908604
 30
0.0
 11
118.5444929605
 21
-55.2507091396
 31
0.0
  0
LINE
  5
BA
330
1F
100
AcDbEntity
  8
0
  6
Continuous
 62
     7
370
    25
100
AcDbLine
 10
168.5444929605
 20
-55.2507091396
 30
0.0
 11
168.5444929605
 21
7.7492908604
 31
0.0
  0
LINE
  5
BB
330
1F
100
AcDbEntity
  8
0
  6
Continuous
 62
     7
370
    25
100
AcDbLine
 10
99.5444929605
 20
36.7492908604
 30
0.0
 11
187.5444929605
 21
36.7492908604
 31
0.0
  0
LINE
  5
BC
330
1F
100
AcDbEntity
  8
0
  6
Continuous
 62
     7
370
    25
100
AcDbLine
 10
99.5444929605
 20
24.7492908604
 30
0.0
 11
187.5444929605
 21
24.7492908604
 31
0.0
  0
LINE
  5
BD
330
1F
100
AcDbEntity
  8
0
  6
Continuous
 62
     7
370
    25
100
AcDbLine
 10
118.5444929605
 20
7.7492908604
 30
0.0
 11
168.5444929605
 21
7.7492908604
 31
0.0
  0
LINE
  5
BE
330
1F
100
AcDbEntity
  8
0
  6
Continuous
 62
     7
370
    25
100
AcDbLine
 10
118.5444929605
 20
-55.2507091396
 30
0.0
 11
168.5444929605
 21
-55.2507091396
 31
0.0
  0
LINE
  5
BF
330
1F
100
AcDbEntity
  8
0
  6
Continuous
 62
     7
370
    25
100
AcDbLine
 10
243.4096511721
 20
15.2477077438
 30
0.0
 11
214.0078416695
 21
-13.4493596848
 31
0.0
  0
LINE
  5
C0
330
1F
100
AcDbEntity
  8
0
  6
Continuous
 62
     7
370
    25
100
AcDbLine
 10
248.9317496021
 20
-49.2309283302
 30
0.0
 11
278.3335591047
 21
-20.5338609015
 31
0.0
  0
LINE
  5
C1
330
1F
100
AcDbEntity
  8
0
  6
Continuous
 62
     7
370
    25
100
AcDbLine
 10
242.1588315777
 20
18.5972862663
 30
0.0
 11
240.4992328387
 21
12.4070502274
 31
0.0
  0
LINE
  5
C2
330
1F
100
AcDbEntity
  8
0
  6
Continuous
 62
     7
370
    25
100
AcDbLine
 10
275.4231407713
 20
-23.3745184179
 30
0.0
 11
281.6518115362
 21
-21.8655615949
 31
0.0
  0
LINE
  5
C3
330
1F
100
AcDbEntity
  8
0
  6
Continuous
 62
     7
370
    25
100
AcDbLine
 10
243.6727324367
 20
42.0544650264
 30
0.0
 11
238.0723877696
 21
36.5883569447
 31
0.0
  0
LINE
  5
C4
330
1F
100
AcDbEntity
  8
0
  6
Continuous
 62
     7
370
    25
100
AcDbLine
 10
299.5384657308
 20
-26.3872038711
 30
0.0
 11
305.138810398
 21
-20.9210957894
 31
0.0
  0
LWPOLYLINE
  5
C5
330
1F
100
AcDbEntity
  8
0
  6
Continuous
 62
     7
370
    25
100
AcDbPolyline
 90
       97
 70
   128
 43
0.0
 10
209.3593425939
 20
-25.3309966404
 10
209.4066827711
 20
-23.9423270927
 10
209.5485005847
 20
-22.5853361328
 10
209.7841887492
 20
-21.2658346042
 10
210.1127380117
 20
-19.9894728151
 10
210.5327414736
 20
-18.7617163427
 10
211.0424006158
 20
-17.5878226286
 10
211.6395329996
 20
-16.472818466
 10
212.3215816123
 20
-15.4214784737
 10
213.0856258172
 20
-14.4383046512
 10
213.9283938596
 20
-13.5275070996
 10
214.8462768775
 20
-12.692985994
 10
215.8353443548
 20
-11.9383148816
 10
216.8913609526
 20
-11.2667253803
 10
218.009804646
 20
-10.6810933392
 10
219.1858860871
 20
-10.1839265247
 10
220.4145691148
 20
-9.7773538814
 10
221.6905923197
 20
-9.4631164159
 10
223.0084915746
 20
-9.2425597411
 10
224.3626234324
 20
-9.1166283146
 10
225.7471892927
 20
-9.0858613941
 10
227.1562602319
 20
-9.1503907283
 10
228.583802392
 20
-9.3099399927
 10
230.0237028182
 20
-9.5638259728
 10
231.4697956358
 20
-9.91096149
 10
232.9158884534
 20
-10.3498600565
 10
234.3557888796
 20
-10.8786422414
 10
235.7833310397
 20
-11.4950437181
 10
237.1924019789
 20
-12.196424961
 10
238.5769678392
 20
-12.9797825478
 10
239.931099697
 20
-13.8417620211
 10
241.2489989519
 20
-14.7786722525
 10
242.5250221568
 20
-15.7865012485
 10
243.7537051845
 20
-16.8609333307
 10
244.9297866256
 20
-17.9973676158
 10
246.048230319
 20
-19.1909377179
 10
247.1042469169
 20
-20.4365325865
 10
248.0933143941
 20
-21.7288183931
 10
249.011197412
 20
-23.0622613716
 10
249.8539654544
 20
-24.4311515144
 10
250.6180096593
 20
-25.8296270237
 10
251.3000582721
 20
-27.2516994128
 10
251.8971906558
 20
-28.6912791492
 10
252.406849798
 20
-30.1422017317
 10
252.82685326
 20
-31.5982540868
 10
253.1554025224
 20
-33.053201175
 10
253.3910906869
 20
-34.5008126895
 10
253.5329085006
 20
-35.9348897353
 10
253.5802486777
 20
-37.3492913746
 10
253.5329085006
 20
-38.7379609223
 10
253.3910906869
 20
-40.0949518823
 10
253.1554025224
 20
-41.4144534108
 10
252.82685326
 20
-42.6908151999
 10
252.406849798
 20
-43.9185716723
 10
251.8971906558
 20
-45.0924653864
 10
251.3000582721
 20
-46.2074695491
 10
250.6180096593
 20
-47.2588095413
 10
249.8539654544
 20
-48.2419833638
 10
249.011197412
 20
-49.1527809154
 10
248.0933143941
 20
-49.9873020211
 10
247.1042469169
 20
-50.7419731334
 10
246.048230319
 20
-51.4135626348
 10
244.9297866256
 20
-51.9991946758
 10
243.7537051845
 20
-52.4963614903
 10
242.5250221568
 20
-52.9029341336
 10
241.2489989519
 20
-53.2171715992
 10
239.931099697
 20
-53.437728274
 10
238.5769678392
 20
-53.5636597004
 10
237.1924019789
 20
-53.5944266209
 10
235.7833310397
 20
-53.5298972867
 10
234.3557888796
 20
-53.3703480223
 10
232.9158884534
 20
-53.1164620422
 10
231.4697956358
 20
-52.7693265251
 10
230.0237028182
 20
-52.3304279585
 10
228.583802392
 20
-51.8016457737
 10
227.1562602319
 20
-51.1852442969
 10
225.7471892927
 20
-50.483863054
 10
224.3626234324
 20
-49.7005054672
 10
223.0084915746
 20
-48.8385259939
 10
221.6905923197
 20
-47.9016157625
 10
220.4145691148
 20
-46.8937867665
 10
219.1858860871
 20
-45.8193546844
 10
218.009804646
 20
-44.6829203992
 10
216.8913609526
 20
-43.4893502971
 10
215.8353443548
 20
-42.2437554285
 10
214.8462768775
 20
-40.9514696219
 10
213.9283938596
 20
-39.6180266434
 10
213.0856258172
 20
-38.2491365006
 10
212.3215816123
 20
-36.8506609913
 10
211.6395329996
 20
-35.4285886023
 10
211.0424006158
 20
-33.9890088658
 10
210.5327414736
 20
-32.5380862834
 10
210.1127380117
 20
-31.0820339282
 10
209.7841887492
 20
-29.62708684
 10
209.5485005847
 20
-28.1794753256
 10
209.4066827711
 20
-26.7453982797
 10
209.3593425939
 20
-25.3309966404
  0
LWPOLYLINE
  5
C6
330
1F
100
AcDbEntity
  8
0
  6
Continuous
 62
     7
370
    25
100
AcDbPolyline
 90
       88
 70
   128
 43
0.0
 10
213.4276659536
 20
-26.436679756
 10
213.4746976086
 20
-25.1876960692
 10
213.6155473723
 20
-23.9707883972
 10
213.8494809194
 20
-22.7923011331
 10
214.1752786285
 20
-21.6583783638
 10
214.5912419413
 20
-20.5749318376
 10
215.0952022177
 20
-19.5476101429
 10
215.6845320422
 20
-18.5817692594
 10
216.3561589219
 20
-17.6824446343
 10
217.1065813052
 20
-16.8543249297
 10
217.9318868374
 20
-16.1017275783
 10
218.8277727576
 20
-15.4285762742
 10
219.7895683313
 20
-14.8383805167
 10
220.8122592018
 20
-14.3342173131
 10
221.8905135325
 20
-13.918715137
 10
223.0187098045
 20
-13.5940402242
 10
224.1909661248
 20
-13.3618852795
 10
225.4011708919
 20
-13.2234606512
 10
226.6430146584
 20
-13.1794880212
 10
227.9100230259
 20
-13.2301966425
 10
229.1955903996
 20
-13.3753221438
 10
230.4930144263
 20
-13.614107908
 10
231.7955309379
 20
-13.9453090166
 10
233.0963492165
 20
-14.3671987404
 10
234.3886873979
 20
-14.8775775418
 10
235.6658078291
 20
-15.4737845419
 10
236.9210521958
 20
-16.1527113936
 10
238.1478762348
 20
-16.9108184866
 10
239.3398838538
 20
-17.7441534016
 10
240.4908604769
 20
-18.6483715162
 10
241.5948054451
 20
-19.6187586558
 10
242.6459633003
 20
-20.6502556712
 10
243.6388537923
 20
-21.7374848146
 10
244.5683004498
 20
-22.8747777766
 10
245.4294575683
 20
-24.0562052384
 10
246.2178354732
 20
-25.2756077842
 10
246.9293239274
 20
-26.5266280138
 10
247.5602135593
 20
-27.802743687
 10
248.1072152026
 20
-29.0973017275
 10
248.5674770441
 20
-30.4035529091
 10
248.9385994915
 20
-31.714687043
 10
249.2186476842
 20
-33.0238684829
 10
249.4061615808
 20
-34.3242717631
 10
249.5001635705
 20
-35.6091171829
 10
249.5001635705
 20
-36.8717061533
 10
249.4061615808
 20
-38.1054561199
 10
249.2186476842
 20
-39.3039348818
 10
248.9385994915
 20
-40.4608941256
 10
248.5674770441
 20
-41.5703020015
 10
248.1072152026
 20
-42.6263745705
 10
247.5602135593
 20
-43.6236059594
 10
246.9293239274
 20
-44.5567970652
 10
246.2178354732
 20
-45.4210826619
 10
245.4294575683
 20
-46.2119567643
 10
244.5683004498
 20
-46.9252961213
 10
243.6388537923
 20
-47.5573817116
 10
242.6459633003
 20
-48.1049181336
 10
241.5948054451
 20
-48.5650507861
 10
240.4908604769
 20
-48.9353807504
 10
239.3398838538
 20
-49.2139772975
 10
238.1478762348
 20
-49.3993879541
 10
236.9210521958
 20
-49.4906460748
 10
235.6658078291
 20
-49.4872758821
 10
234.3886873979
 20
-49.3892949465
 10
233.0963492165
 20
-49.1972140954
 10
231.7955309379
 20
-48.9120347493
 10
230.4930144263
 20
-48.5352437013
 10
229.1955903996
 20
-48.0688053654
 10
227.9100230259
 20
-47.5151515352
 10
226.6430146584
 20
-46.8771687053
 10
225.4011708919
 20
-46.1581830229
 10
224.1909661248
 20
-45.3619429463
 10
223.0187098045
 20
-44.4925997026
 10
221.8905135325
 20
-43.554685645
 10
220.8122592018
 20
-42.5530906231
 10
219.7895683313
 20
-41.4930364896
 10
218.8277727576
 20
-40.3800498757
 10
217.9318868374
 20
-39.2199333785
 10
217.1065813052
 20
-38.0187353082
 10
216.3561589219
 20
-36.7827181552
 10
215.6845320422
 20
-35.5183259407
 10
215.0952022177
 20
-34.2321506202
 10
214.5912419413
 20
-32.9308977164
 10
214.1752786285
 20
-31.6213513594
 10
213.8494809194
 20
-30.3103389174
 10
213.6155473723
 20
-29.0046954023
 10
213.4746976086
 20
-27.7112278348
 10
213.4276659536
 20
-26.436679756
  0
LWPOLYLINE
  5
C7
330
1F
100
AcDbEntity
  8
0
  6
Continuous
 62
     7
370
    25
100
AcDbPolyline
 90
       50
 70
   128
 43
0.0
 10
243.4096511721
 20
15.2477077438
 10
244.2480863801
 20
16.0040814347
 10
245.2371538573
 20
16.758752547
 10
246.2931704552
 20
17.4303420484
 10
247.4116141486
 20
18.0159740895
 10
248.5876955897
 20
18.513140904
 10
249.8163786174
 20
18.9197135472
 10
251.0924018223
 20
19.2339510128
 10
252.4103010772
 20
19.4545076876
 10
253.764432935
 20
19.5804391141
 10
255.1489987953
 20
19.6112060346
 10
256.5580697345
 20
19.5466767003
 10
257.9856118946
 20
19.3871274359
 10
259.4255123208
 20
19.1332414558
 10
260.8716051384
 20
18.7861059387
 10
262.317697956
 20
18.3472073722
 10
263.7575983822
 20
17.8184251873
 10
265.1851405423
 20
17.2020237106
 10
266.5942114815
 20
16.5006424677
 10
267.9787773418
 20
15.7172848809
 10
269.3329091996
 20
14.8553054075
 10
270.6508084545
 20
13.9183951762
 10
271.9268316594
 20
12.9105661801
 10
273.1555146871
 20
11.836134098
 10
274.3315961282
 20
10.6996998129
 10
275.4500398216
 20
9.5061297108
 10
276.5060564195
 20
8.2605348422
 10
277.4951238967
 20
6.9682490355
 10
278.4130069146
 20
5.634806057
 10
279.255774957
 20
4.2659159143
 10
280.0198191619
 20
2.8674404049
 10
280.7018677747
 20
1.4453680159
 10
281.2990001584
 20
0.0057882794
 10
281.8086593006
 20
-1.445134303
 10
282.2286627626
 20
-2.9011866582
 10
282.557212025
 20
-4.3561337464
 10
282.7929001895
 20
-5.8037452608
 10
282.9347180031
 20
-7.2378223067
 10
282.9820581803
 20
-8.6522239459
 10
282.9347180031
 20
-10.0408934936
 10
282.7929001895
 20
-11.3978844536
 10
282.557212025
 20
-12.7173859822
 10
282.2286627626
 20
-13.9937477712
 10
281.8086593006
 20
-15.2215042436
 10
281.2990001584
 20
-16.3953979577
 10
280.7018677747
 20
-17.5104021204
 10
280.0198191619
 20
-18.5617421126
 10
279.255774957
 20
-19.5449159351
 10
278.4130069146
 20
-20.4557134867
 10
278.3335591047
 20
-20.5338609015
  0
LWPOLYLINE
  5
C8
330
1F
100
AcDbEntity
  8
0
  6
Continuous
 62
     7
370
    25
100
AcDbPolyline
 90
       69
 70
   128
 43
0.0
 10
242.1588315777
 20
18.5972862663
 10
242.5617388938
 20
19.9232131221
 10
243.0726381945
 20
21.263830101
 10
243.6722437482
 20
22.5487289964
 10
244.3584885904
 20
23.7734804957
 10
245.1290070928
 20
24.9338626268
 10
245.9811431186
 20
26.025875312
 10
246.9119591785
 20
27.0457541574
 10
247.9182465565
 20
27.9899834293
 10
248.9965363717
 20
28.8553081739
 10
250.1431115356
 20
29.6387454375
 10
251.3540195662
 20
30.3375945495
 10
252.6250862127
 20
30.9494464323
 10
253.9519298449
 20
31.4721919057
 10
255.329976558
 20
31.9040289577
 10
256.7544759395
 20
32.2434689565
 10
258.220517445
 20
32.4893417823
 10
259.7230473256
 20
32.6407998603
 10
261.2568860496
 20
32.6973210833
 10
262.8167461572
 20
32.6587106108
 10
264.3972504874
 20
32.5251015412
 10
265.9929507144
 20
32.2969544526
 10
267.5983461289
 20
31.9750558153
 10
269.2079026004
 20
31.5605152806
 10
270.8160716542
 20
31.0547618555
 10
272.4173095986
 20
30.4595389769
 10
274.0060966345
 20
29.7768985014
 10
275.5769558839
 20
29.0091936321
 10
277.1244722696
 20
28.1590708067
 10
278.6433111821
 20
27.2294605748
 10
280.1282368688
 20
26.2235674953
 10
281.5741304835
 20
25.1448590901
 10
282.9760077312
 20
23.9970538905
 10
284.3290360506
 20
22.7841086189
 10
285.6285512729
 20
21.5102045489
 10
286.8700736998
 20
20.1797330916
 10
288.0493235465
 20
18.7972806579
 10
289.1622356942
 20
17.3676128477
 10
290.2049737044
 20
15.895658022
 10
291.1739430431
 20
14.3864903141
 10
292.0658034722
 20
12.8453121378
 10
292.8774805641
 20
11.2774362534
 10
293.6061762998
 20
9.688267454
 10
294.2493787139
 20
8.0832839336
 10
294.8048705546
 20
6.4680184029
 10
295.2707369265
 20
4.8480390168
 10
295.6453718916
 20
3.2289301798
 10
295.9274840055
 20
1.6162732956
 10
296.1161007695
 20
0.0156275264
 10
296.2105719824
 20
-1.5674893701
 10
296.2105719824
 20
-3.127620062
 10
296.1161007695
 20
-4.6593864557
 10
295.9274840055
 20
-6.1575082351
 10
295.6453718916
 20
-7.6168210641
 10
295.2707369265
 20
-9.0322943889
 10
294.8048705546
 20
-10.3990487799
 10
294.2493787139
 20
-11.7123727515
 10
293.6061762998
 20
-12.9677390039
 10
292.8774805641
 20
-14.1608200295
 10
292.0658034722
 20
-15.287503031
 10
291.1739430431
 20
-16.3439040986
 10
290.2049737044
 20
-17.326381599
 10
289.1622356942
 20
-18.2315487287
 10
288.0493235465
 20
-19.056285189
 10
286.8700736998
 20
-19.7977479427
 10
285.6285512729
 20
-20.4533810138
 10
284.3290360506
 20
-21.0209242995
 10
282.9760077312
 20
-21.4984213605
 10
281.6518115362
 20
-21.8655615949
  0
LWPOLYLINE
  5
C9
330
1F
100
AcDbEntity
  8
0
  6
Continuous
 62
     7
370
    25
100
AcDbPolyline
 90
       66
 70
   128
 43
0.0
 10
243.6727324367
 20
42.0544650264
 10
244.3245354766
 20
42.668491859
 10
245.5721049056
 20
43.7311459156
 10
246.8891371627
 20
44.71390388
 10
248.272459402
 20
45.6143982023
 10
249.7187390788
 20
46.4304595128
 10
251.224491979
 20
47.1601218483
 10
252.7860906117
 20
47.8016273882
 10
254.3997729492
 20
48.3534306897
 10
256.0616514892
 20
48.8142024101
 10
257.767722621
 20
49.1828325101
 10
259.5138762696
 20
49.4584329274
 10
261.295905798
 20
49.6403397166
 10
263.109518141
 20
49.7281146481
 10
264.9503441475
 20
49.7215462646
 10
266.8139491066
 20
49.6206503898
 10
268.6958434305
 20
49.4256700908
 10
270.5914934711
 20
49.1370750921
 10
272.4963324414
 20
48.7555606444
 10
274.4057714174
 20
48.2820458494
 10
276.3152103934
 20
47.7176714457
 10
278.2200493636
 20
47.0637970607
 10
280.1156994042
 20
46.321997935
 10
281.9975937282
 20
45.4940611278
 10
283.8611986872
 20
44.5819812113
 10
285.7020246938
 20
43.5879554659
 10
287.5156370367
 20
42.5143785868
 10
289.2976665652
 20
41.3638369145
 10
291.0438202138
 20
40.1391022049
 10
292.7498913455
 20
38.8431249511
 10
294.4117698856
 20
37.4790272757
 10
296.025452223
 20
36.0500954097
 10
297.5870508558
 20
34.559771775
 10
299.0928037559
 20
33.0116466918
 10
300.5390834328
 20
31.409449729
 10
301.922405672
 20
29.7570407195
 10
303.2394379292
 20
28.0584004612
 10
304.4870073582
 20
26.3176211274
 10
305.662108455
 20
24.5388964079
 10
306.7619102981
 20
22.7265114064
 10
307.7837633687
 20
20.884832317
 10
308.725205933
 20
19.0182959061
 10
309.5839699736
 20
17.1313988234
 10
310.3579866526
 20
15.2286867691
 10
311.045391296
 20
13.3147435433
 10
311.6445278859
 20
11.3941800028
 10
312.1539530498
 20
9.4716229535
 10
312.5724395378
 20
7.5517040036
 10
312.8989791792
 20
5.6390484062
 10
313.1327853115
 20
3.7382639159
 10
313.2732946753
 20
1.8539296893
 10
313.3201687712
 20
-0.0094147476
 10
313.2732946753
 20
-1.8472804348
 10
313.1327853115
 20
-3.6552397928
 10
312.8989791792
 20
-5.4289372892
 10
312.5724395378
 20
-7.1640999314
 10
312.1539530498
 20
-8.8565475605
 10
311.6445278859
 20
-10.5022029221
 10
311.045391296
 20
-12.0971014882
 10
310.3579866526
 20
-13.6374010084
 10
309.5839699736
 20
-15.1193907663
 10
308.725205933
 20
-16.5395005188
 10
307.7837633687
 20
-17.8943090971
 10
306.7619102981
 20
-19.1805526486
 10
305.662108455
 20
-20.3951325
 10
305.138810398
 20
-20.9210957894
  0
LWPOLYLINE
  5
CA
330
1F
100
AcDbEntity
  8
0
  6
Continuous
 62
     7
370
    25
100
AcDbPolyline
 90
       99
 70
   128
 43
0.0
 10
229.8910293964
 20
15.6766759029
 10
229.9379034923
 20
17.5145415901
 10
230.0784128561
 20
19.3225009481
 10
230.3122189884
 20
21.0961984445
 10
230.6387586298
 20
22.8313610867
 10
231.0572451178
 20
24.5238087158
 10
231.5666702816
 20
26.1694640774
 10
232.1658068716
 20
27.7643626435
 10
232.853211515
 20
29.3046621637
 10
233.627228194
 20
30.7866519216
 10
234.4859922346
 20
32.2067616741
 10
235.4274347989
 20
33.5615702524
 10
236.4492878695
 20
34.8478138039
 10
237.5490897126
 20
36.0623936553
 10
238.7241908094
 20
37.2023837773
 10
239.9717602384
 20
38.2650378339
 10
241.2887924956
 20
39.2477957984
 10
242.6721147348
 20
40.1482901207
 10
244.1183944117
 20
40.9643514312
 10
245.6241473118
 20
41.6940137666
 10
247.1857459445
 20
42.3355193066
 10
248.799428282
 20
42.887322608
 10
250.4613068221
 20
43.3480943285
 10
252.1673779538
 20
43.7167244284
 10
253.9135316024
 20
43.9923248458
 10
255.6955611308
 20
44.1742316349
 10
257.5091734738
 20
44.2620065665
 10
259.3499994804
 20
44.255438183
 10
261.2136044394
 20
44.1545423082
 10
263.0954987633
 20
43.9595620091
 10
264.9911488039
 20
43.6709670104
 10
266.8959877742
 20
43.2894525627
 10
268.8054267502
 20
42.8159377677
 10
270.7148657262
 20
42.251563364
 10
272.6197046965
 20
41.597688979
 10
274.5153547371
 20
40.8558898534
 10
276.397249061
 20
40.0279530462
 10
278.2608540201
 20
39.1158731297
 10
280.1016800266
 20
38.1218473843
 10
281.9152923696
 20
37.0482705051
 10
283.697321898
 20
35.8977288329
 10
285.4434755466
 20
34.6729941232
 10
287.1495466784
 20
33.3770168694
 10
288.8114252184
 20
32.0129191941
 10
290.4251075559
 20
30.5839873281
 10
291.9867061886
 20
29.0936636934
 10
293.4924590887
 20
27.5455386102
 10
294.9387387656
 20
25.9433416474
 10
296.3220610049
 20
24.2909326378
 10
297.639093262
 20
22.5922923796
 10
298.886662691
 20
20.8515130457
 10
300.0617637878
 20
19.0727883262
 10
301.161565631
 20
17.2604033247
 10
302.1834187015
 20
15.4187242354
 10
303.1248612658
 20
13.5521878245
 10
303.9836253064
 20
11.6652907417
 10
304.7576419854
 20
9.7625786874
 10
305.4450466289
 20
7.8486354616
 10
306.0441832188
 20
5.9280719212
 10
306.5536083826
 20
4.0055148718
 10
306.9720948706
 20
2.085595922
 10
307.298634512
 20
0.1729403245
 10
307.5324406444
 20
-1.7278441657
 10
307.6729500082
 20
-3.6121783924
 10
307.719824104
 20
-5.4755228293
 10
307.6729500082
 20
-7.3133885164
 10
307.5324406444
 20
-9.1213478744
 10
307.298634512
 20
-10.8950453708
 10
306.9720948706
 20
-12.630208013
 10
306.5536083826
 20
-14.3226556422
 10
306.0441832188
 20
-15.9683110037
 10
305.4450466289
 20
-17.5632095698
 10
304.7576419854
 20
-19.10350909
 10
303.9836253064
 20
-20.585498848
 10
303.1248612658
 20
-22.0056086004
 10
302.1834187015
 20
-23.3604171787
 10
301.161565631
 20
-24.6466607302
 10
300.0617637878
 20
-25.8612405816
 10
298.886662691
 20
-27.0012307036
 10
297.639093262
 20
-28.0638847602
 10
296.3220610049
 20
-29.0466427247
 10
294.9387387656
 20
-29.947137047
 10
293.4924590887
 20
-30.7631983575
 10
291.9867061886
 20
-31.492860693
 10
290.4251075559
 20
-32.1343662329
 10
288.8114252184
 20
-32.6861695344
 10
287.1495466783
 20
-33.1469412548
 10
285.4434755466
 20
-33.5155713548
 10
283.697321898
 20
-33.7911717721
 10
281.9152923696
 20
-33.9730785613
 10
280.1016800266
 20
-34.0608534928
 10
278.2608540201
 20
-34.0542851093
 10
276.397249061
 20
-33.9533892345
 10
274.5153547371
 20
-33.7584089355
 10
272.6197046965
 20
-33.4698139368
 10
270.7148657262
 20
-33.0882994891
 10
268.8054267502
 20
-32.6147846941
 10
266.8959877742
 20
-32.0504102904
 10
266.6241035198
 20
-31.9626485223
  0
ARC
  5
CB
330
1F
100
AcDbEntity
  8
0
  6
Continuous
 62
     7
370
    25
100
AcDbCircle
 10
271.2577156237
 20
15.9211979679
 30
0.0
 40
41.36740891652344
100
AcDbArc
 50
180.3386763705
 51
197.0110336858
  0
ENDSEC
  0
SECTION
  2
OBJECTS
  0
DICTIONARY
  5
C
330
0
100
AcDbDictionary
281
     1
  3
ACAD_GROUP
350
D
  3
ACAD_LAYOUT
350
1A
  3
ACAD_MLINESTYLE
350
17
  3
ACAD_PLOTSETTINGS
350
19
  3
ACAD_PLOTSTYLENAME
350
E
  3
ACAD_SCALELIST
350
47
  0
DICTIONARY
  5
D
102
{ACAD_REACTORS
330
C
102
}
330
C
100
AcDbDictionary
281
     1
  0
DICTIONARY
  5
1A
102
{ACAD_REACTORS
330
C
102
}
330
C
100
AcDbDictionary
281
     1
  3
Layout1
350
1E
  3
Layout2
350
26
  3
Model
350
22
  0
DICTIONARY
  5
17
102
{ACAD_REACTORS
330
C
102
}
330
C
100
AcDbDictionary
281
     1
  3
Standard
350
18
  0
DICTIONARY
  5
19
102
{ACAD_REACTORS
330
C
102
}
330
C
100
AcDbDictionary
281
     1
  0
ACDBDICTIONARYWDFLT
  5
E
102
{ACAD_REACTORS
330
C
102
}
330
C
100
AcDbDictionary
281
     1
  3
Normal
350
F
100
AcDbDictionaryWithDefault
340
F
  0
DICTIONARY
  5
47
102
{ACAD_REACTORS
330
C
102
}
330
C
100
AcDbDictionary
281
     1
  3
A0
350
48
  3
A1
350
49
  3
A2
350
4A
  3
A3
350
4B
  3
A4
350
4C
  3
A5
350
4D
  3
A6
350
4E
  3
A7
350
4F
  3
A8
350
50
  3
A9
350
51
  3
B0
350
52
  3
B1
350
53
  3
B2
350
54
  3
B3
350
55
  3
B4
350
56
  3
B5
350
57
  3
B6
350
58
  3
B7
350
59
  3
B8
350
5A
  3
B9
350
5B
  3
C0
350
5C
  3
C1
350
5D
  3
C2
350
5E
  3
C3
350
5F
  3
C4
350
60
  3
C5
350
61
  3
C6
350
62
  3
C7
350
63
  3
C8
350
64
  3
C9
350
65
  3
D0
350
66
  3
D1
350
67
  3
D2
350
68
  0
LAYOUT
  5
1E
102
{ACAD_REACTORS
330
1A
102
}
330
1A
100
AcDbPlotSettings
  1

  2
none_device
  4

  6

 40
0.0
 41
0.0
 42
0.0
 43
0.0
 44
0.0
 45
0.0
 46
0.0
 47
0.0
 48
0.0
 49
0.0
140
0.0
141
0.0
142
1.0
143
1.0
 70
   688
 72
     1
 73
     0
 74
     5
  7

 75
    16
147
1.0
148
0.0
149
0.0
100
AcDbLayout
  1
Layout1
 70
     1
 71
     1
 10
0.0
 20
0.0
 11
420.0
 21
297.0
 12
0.0
 22
0.0
 32
0.0
 14
1.0000000000E+20
 24
1.0000000000E+20
 34
1.0000000000E+20
 15
-1.0000000000E+20
 25
-1.0000000000E+20
 35
-1.0000000000E+20
146
0.0
 13
0.0
 23
0.0
 33
0.0
 16
1.0
 26
0.0
 36
0.0
 17
0.0
 27
1.0
 37
0.0
 76
     0
330
1B
  0
LAYOUT
  5
26
102
{ACAD_REACTORS
330
1A
102
}
330
1A
100
AcDbPlotSettings
  1

  2
none_device
  4

  6

 40
0.0
 41
0.0
 42
0.0
 43
0.0
 44
0.0
 45
0.0
 46
0.0
 47
0.0
 48
0.0
 49
0.0
140
0.0
141
0.0
142
1.0
143
1.0
 70
   688
 72
     1
 73
     0
 74
     5
  7

 75
    16
147
1.0
148
0.0
149
0.0
100
AcDbLayout
  1
Layout2
 70
     1
 71
     2
 10
0.0
 20
0.0
 11
0.0
 21
0.0
 12
0.0
 22
0.0
 32
0.0
 14
0.0
 24
0.0
 34
0.0
 15
0.0
 25
0.0
 35
0.0
146
0.0
 13
0.0
 23
0.0
 33
0.0
 16
1.0
 26
0.0
 36
0.0
 17
0.0
 27
1.0
 37
0.0
 76
     0
330
23
  0
LAYOUT
  5
22
102
{ACAD_REACTORS
330
1A
102
}
330
1A
100
AcDbPlotSettings
  1

  2
none_device
  4
Letter_(8.50_x_11.00_Inches)
  6

 40
6.35
 41
6.35
 42
6.35000508
 43
6.35000508
 44
215.9
 45
279.4
 46
0.0
 47
0.0
 48
0.0
 49
0.0
140
0.0
141
0.0
142
1.0
143
1.0
 70
  1712
 72
     1
 73
     0
 74
     0
  7

 75
     0
147
1.0
148
0.0
149
0.0
100
AcDbLayout
  1
Model
 70
     1
 71
     0
 10
0.0
 20
0.0
 11
279.4
 21
215.9
 12
0.0
 22
0.0
 32
0.0
 14
0.0
 24
0.0
 34
0.0
 15
279.4
 25
215.9
 35
0.0
146
0.0
 13
0.0
 23
0.0
 33
0.0
 16
1.0
 26
0.0
 36
0.0
 17
0.0
 27
1.0
 37
0.0
 76
     0
330
1F
331
29
  0
MLINESTYLE
  5
18
102
{ACAD_REACTORS
330
17
102
}
330
17
100
AcDbMlineStyle
  2
Standard
 70
     0
  3

 62
   256
 51
90.0
 52
90.0
 71
     2
 49
0.5
 62
   256
  6
BYLAYER
 49
-0.5
 62
   256
  6
BYLAYER
  0
ACDBPLACEHOLDER
  5
F
102
{ACAD_REACTORS
330
E
102
}
330
E
  0
SCALE
  5
48
102
{ACAD_REACTORS
330
47
102
}
330
47
100
AcDbScale
 70
     0
300
1:1
140
1.0
141
1.0
290
     1
  0
SCALE
  5
49
102
{ACAD_REACTORS
330
47
102
}
330
47
100
AcDbScale
 70
     0
300
1:2
140
1.0
141
2.0
290
     0
  0
SCALE
  5
4A
102
{ACAD_REACTORS
330
47
102
}
330
47
100
AcDbScale
 70
     0
300
1:4
140
1.0
141
4.0
290
     0
  0
SCALE
  5
4B
102
{ACAD_REACTORS
330
47
102
}
330
47
100
AcDbScale
 70
     0
300
1:5
140
1.0
141
5.0
290
     0
  0
SCALE
  5
4C
102
{ACAD_REACTORS
330
47
102
}
330
47
100
AcDbScale
 70
     0
300
1:8
140
1.0
141
8.0
290
     0
  0
SCALE
  5
4D
102
{ACAD_REACTORS
330
47
102
}
330
47
100
AcDbScale
 70
     0
300
1:10
140
1.0
141
10.0
290
     0
  0
SCALE
  5
4E
102
{ACAD_REACTORS
330
47
102
}
330
47
100
AcDbScale
 70
     0
300
1:16
140
1.0
141
16.0
290
     0
  0
SCALE
  5
4F
102
{ACAD_REACTORS
330
47
102
}
330
47
100
AcDbScale
 70
     0
300
1:20
140
1.0
141
20.0
290
     0
  0
SCALE
  5
50
102
{ACAD_REACTORS
330
47
102
}
330
47
100
AcDbScale
 70
     0
300
1:30
140
1.0
141
30.0
290
     0
  0
SCALE
  5
51
102
{ACAD_REACTORS
330
47
102
}
330
47
100
AcDbScale
 70
     0
300
1:40
140
1.0
141
40.0
290
     0
  0
SCALE
  5
52
102
{ACAD_REACTORS
330
47
102
}
330
47
100
AcDbScale
 70
     0
300
1:50
140
1.0
141
50.0
290
     0
  0
SCALE
  5
53
102
{ACAD_REACTORS
330
47
102
}
330
47
100
AcDbScale
 70
     0
300
1:100
140
1.0
141
100.0
290
     0
  0
SCALE
  5
54
102
{ACAD_REACTORS
330
47
102
}
330
47
100
AcDbScale
 70
     0
300
2:1
140
2.0
141
1.0
290
     0
  0
SCALE
  5
55
102
{ACAD_REACTORS
330
47
102
}
330
47
100
AcDbScale
 70
     0
300
4:1
140
4.0
141
1.0
290
     0
  0
SCALE
  5
56
102
{ACAD_REACTORS
330
47
102
}
330
47
100
AcDbScale
 70
     0
300
8:1
140
8.0
141
1.0
290
     0
  0
SCALE
  5
57
102
{ACAD_REACTORS
330
47
102
}
330
47
100
AcDbScale
 70
     0
300
10:1
140
10.0
141
1.0
290
     0
  0
SCALE
  5
58
102
{ACAD_REACTORS
330
47
102
}
330
47
100
AcDbScale
 70
     0
300
100:1
140
100.0
141
1.0
290
     0
  0
SCALE
  5
59
102
{ACAD_REACTORS
330
47
102
}
330
47
100
AcDbScale
 70
     0
300
1/128" = 1'-0"
140
0.0078125
141
12.0
290
     0
  0
SCALE
  5
5A
102
{ACAD_REACTORS
330
47
102
}
330
47
100
AcDbScale
 70
     0
300
1/64" = 1'-0"
140
0.015625
141
12.0
290
     0
  0
SCALE
  5
5B
102
{ACAD_REACTORS
330
47
102
}
330
47
100
AcDbScale
 70
     0
300
1/32" = 1'-0"
140
0.03125
141
12.0
290
     0
  0
SCALE
  5
5C
102
{ACAD_REACTORS
330
47
102
}
330
47
100
AcDbScale
 70
     0
300
1/16" = 1'-0"
140
0.0625
141
12.0
290
     0
  0
SCALE
  5
5D
102
{ACAD_REACTORS
330
47
102
}
330
47
100
AcDbScale
 70
     0
300
3/32" = 1'-0"
140
0.09375
141
12.0
290
     0
  0
SCALE
  5
5E
102
{ACAD_REACTORS
330
47
102
}
330
47
100
AcDbScale
 70
     0
300
1/8" = 1'-0"
140
0.125
141
12.0
290
     0
  0
SCALE
  5
5F
102
{ACAD_REACTORS
330
47
102
}
330
47
100
AcDbScale
 70
     0
300
3/16" = 1'-0"
140
0.1875
141
12.0
290
     0
  0
SCALE
  5
60
102
{ACAD_REACTORS
330
47
102
}
330
47
100
AcDbScale
 70
     0
300
1/4" = 1'-0"
140
0.25
141
12.0
290
     0
  0
SCALE
  5
61
102
{ACAD_REACTORS
330
47
102
}
330
47
100
AcDbScale
 70
     0
300
3/8" = 1'-0"
140
0.375
141
12.0
290
     0
  0
SCALE
  5
62
102
{ACAD_REACTORS
330
47
102
}
330
47
100
AcDbScale
 70
     0
300
1/2" = 1'-0"
140
0.5
141
12.0
290
     0
  0
SCALE
  5
63
102
{ACAD_REACTORS
330
47
102
}
330
47
100
AcDbScale
 70
     0
300
3/4" = 1'-0"
140
0.75
141
12.0
290
     0
  0
SCALE
  5
64
102
{ACAD_REACTORS
330
47
102
}
330
47
100
AcDbScale
 70
     0
300
1" = 1'-0"
140
1.0
141
12.0
290
     0
  0
SCALE
  5
65
102
{ACAD_REACTORS
330
47
102
}
330
47
100
AcDbScale
 70
     0
300
1-1/2" = 1'-0"
140
1.5
141
12.0
290
     0
  0
SCALE
  5
66
102
{ACAD_REACTORS
330
47
102
}
330
47
100
AcDbScale
 70
     0
300
3" = 1'-0"
140
3.0
141
12.0
290
     0
  0
SCALE
  5
67
102
{ACAD_REACTORS
330
47
102
}
330
47
100
AcDbScale
 70
     0
300
6" = 1'-0"
140
6.0
141
12.0
290
     0
  0
SCALE
  5
68
102
{ACAD_REACTORS
330
47
102
}
330
47
100
AcDbScale
 70
     0
300
1'-0" = 1'-0"
140
12.0
141
12.0
290
     0
  0
ENDSEC
  0
EOF
